Login
Rock
Bird Song by Grateful Dead
Bird Song
Garcia
Bird Song

Intro Tabulature

D7 C D7
All I know is something like a bird within her sang,
D7 C D7
All I know she sang a little while and then flew off,
Bb F F C C G D7
Tell me all that you know, I'll show you snow and rain.
If you hear that same sweet song again, will you know why?
Anyone who sings a tune so sweet is passin' by,
Laugh in the sunshine, sing, cry in the dark, fly through the night.
(SN Bass) F#^G# A A# B
Bm A G D A G D A G D
Don't cry now, don't you cry, don't you cry anymore, la-da-da-da.
(SN Bass) F#^G# A A# B
Bm A G D A G D A G D D7
Sleep in the stars, don't you cry, dry your eyes on the wind, la-da-da-da-da.
All I know is something like a bird within her sang,
All I know she sang a little while and then flew off,
Tell me all that you know, I'll show you snow and rain.

Intro

(^) Slide Up () Slide Down (h) Hammer On (p) Pull Off (b) Bend
RA Tab Support Audio (63K)
MIDI Tab Support Audio (Birdsong.mid)
D7
E---------------------------------------2-
B---------------------------------------1-
G----------------------------0----------2-
D------------2--0-------0-------2-------0-
A--0h2h3----------3--------------3--------
E-----------------------------------------

E---------------------3--2----0-
B-----------------------------1-
G-----------------------------2-
D----------------0------------0-
A--------3---0------------------
E--3^5--------------------------
or
E-------------------------------
B-------------------------------
G-------------------------------
D----------------0--------------
A--------3---0--------3--2--0---
E--3^5--------------------------
Return To Base



Login
©Copyright 2007 Bagus. All rights reserved
Powered by bagus.org. Bagus.org is having transient technical difficulties with its database connections. However you still can access the pages if you RELOAD A FEW TIMES. Thanks for your understanding while I try to find time to maintain this 20 year old software