Login
Rock
Domino by Van Morrison
A       D        A     D
Don't want to discuss it
I think it's time for a change
You may get disgusted
And start thinkin' that I'm actin' strange
In that case I'll go underground
Get some heavy rest
Never have to worry
About what is worst and what is best . . . hit it

Oh, oh, Domino
Roll me over, Romeo, there you go
Lord have mercy, I said
Oh, oh, Domino
Roll me over, Romeo, there you go
Say it again
said oh, oh, Domino
I said oh, oh, Domino

There's no need for argument
There's no argument at all
And if you never hear from him
That just means he didn't call
Or vice-a-versa
That depends on where ever you're at
And if you never hear from me
That just means I would rather not . . . hit it

(Chorus)

Hey mister DJ
I just wanna hear some rhythm & blues right now
On the radio, on the radio, on, on the radio
On, on the radio, On, on the radio
On, on the radio . . . here's the band


A         D        A       D
e|-5---------10-----|-5----------------|
B|-5h7p5-----10-----|-5h7p5---7--------|
G|------------------|---------7--------| Repeat with
D|------------------|---------7--------| variations
A|------------------|------------------|
E|------------------|------------------|
   Bm                E
e|-----------------|-----------------|
B|-----------------|-----------------|
G|-----------------|-----------------|
D|-----------------|-----------------|
A|-2-2-4-4-5-5-6-6-|-----------------|
E|-----------------|-0-0-2-2-3-3-4-4-|

(bass?)
e|---------------|----------------------|
B|---------------|----------------------|
G|---------------|----------------------|
D|---------------|-7-----7------7---/11-|
A|-----------7-9-|------------9---------|
E|-5-----7-9-----|----------------------|
e|----------------|----------------------|
B|----------------|----------------------|
G|----------------|----------------------|
D|----------------|-7----7------7--------|
A|------------7-9-|-----------9---9-7----|
E|-5------7-9-----|----------------------|



Login
©Copyright 2007 Bagus. All rights reserved
Powered by bagus.org. Bagus.org is having transient technical difficulties with its database connections. However you still can access the pages if you RELOAD A FEW TIMES. Thanks for your understanding while I try to find time to maintain this 20 year old software